  0
SECTION
  2
HEADER
  9
$ACADVER
  1
AC1015
  9
$ACADMAINTVER
 70
     6
  9
$DWGCODEPAGE
  3
ANSI_1254
  9
$INSBASE
 10
0.0
 20
0.0
 30
0.0
  9
$EXTMIN
 10
0.0
 20
0.0
 30
0.0
  9
$EXTMAX
 10
279.4
 20
215.9
 30
0.0
  9
$LIMMIN
 10
0.0
 20
0.0
  9
$LIMMAX
 10
279.4
 20
215.9
  9
$ORTHOMODE
 70
     0
  9
$REGENMODE
 70
     1
  9
$FILLMODE
 70
     1
  9
$QTEXTMODE
 70
     0
  9
$MIRRTEXT
 70
     1
  9
$LTSCALE
 40
1.0
  9
$ATTMODE
 70
     1
  9
$TEXTSIZE
 40
3.5
  9
$TRACEWID
 40
1.0
  9
$TEXTSTYLE
  7
Standard
  9
$CLAYER
  8
0
  9
$CELTYPE
  6
ByLayer
  9
$CECOLOR
 62
   256
  9
$CELTSCALE
 40
1.0
  9
$DISPSILH
 70
     0
  9
$DIMSCALE
 40
1.0
  9
$DIMASZ
 40
3.5
  9
$DIMEXO
 40
1.0
  9
$DIMDLI
 40
3.75
  9
$DIMRND
 40
0.0
  9
$DIMDLE
 40
0.0
  9
$DIMEXE
 40
1.0
  9
$DIMTP
 40
0.0
  9
$DIMTM
 40
0.0
  9
$DIMTXT
 40
3.5
  9
$DIMCEN
 40
2.5
  9
$DIMTSZ
 40
0.0
  9
$DIMTOL
 70
     0
  9
$DIMLIM
 70
     0
  9
$DIMTIH
 70
     1
  9
$DIMTOH
 70
     1
  9
$DIMSE1
 70
     0
  9
$DIMSE2
 70
     0
  9
$DIMTAD
 70
     1
  9
$DIMZIN
 70
     0
  9
$DIMBLK
  1

  9
$DIMASO
 70
     1
  9
$DIMSHO
 70
     1
  9
$DIMPOST
  1

  9
$DIMAPOST
  1

  9
$DIMALT
 70
     0
  9
$DIMALTD
 70
     3
  9
$DIMALTF
 40
0.0393700787
  9
$DIMLFAC
 40
1.0
  9
$DIMTOFL
 70
     1
  9
$DIMTVP
 40
0.0
  9
$DIMTIX
 70
     0
  9
$DIMSOXD
 70
     0
  9
$DIMSAH
 70
     0
  9
$DIMBLK1
  1

  9
$DIMBLK2
  1

  9
$DIMSTYLE
  2
ISO-25
  9
$DIMCLRD
 70
     0
  9
$DIMCLRE
 70
     0
  9
$DIMCLRT
 70
     0
  9
$DIMTFAC
 40
1.0
  9
$DIMGAP
 40
1.524
  9
$DIMJUST
 70
     0
  9
$DIMSD1
 70
     0
  9
$DIMSD2
 70
     0
  9
$DIMTOLJ
 70
     0
  9
$DIMTZIN
 70
     0
  9
$DIMALTZ
 70
     0
  9
$DIMALTTZ
 70
     0
  9
$DIMUPT
 70
     0
  9
$DIMDEC
 70
     2
  9
$DIMTDEC
 70
     2
  9
$DIMALTU
 70
     2
  9
$DIMALTTD
 70
     3
  9
$DIMTXSTY
  7
Standard
  9
$DIMAUNIT
 70
     0
  9
$DIMADEC
 70
     2
  9
$DIMALTRND
 40
0.0
  9
$DIMAZIN
 70
     0
  9
$DIMDSEP
 70
    44
  9
$DIMATFIT
 70
     3
  9
$DIMFRAC
 70
     0
  9
$DIMLDRBLK
  1

  9
$DIMLUNIT
 70
     2
  9
$DIMLWD
 70
    -2
  9
$DIMLWE
 70
    -2
  9
$DIMTMOVE
 70
     0
  9
$LUNITS
 70
     2
  9
$LUPREC
 70
     2
  9
$SKETCHINC
 40
1.0
  9
$FILLETRAD
 40
10.0
  9
$AUNITS
 70
     0
  9
$AUPREC
 70
     2
  9
$MENU
  1
.
  9
$ELEVATION
 40
0.0
  9
$PELEVATION
 40
0.0
  9
$THICKNESS
 40
0.0
  9
$LIMCHECK
 70
     0
  9
$CHAMFERA
 40
0.0
  9
$CHAMFERB
 40
0.0
  9
$CHAMFERC
 40
0.0
  9
$CHAMFERD
 40
0.0
  9
$SKPOLY
 70
     0
  9
$TDCREATE
 40
2460682.519617199
  9
$TDUCREATE
 40
2460682.394617199
  9
$TDUPDATE
 40
2460682.519617199
  9
$TDUUPDATE
 40
2460682.394617199
  9
$TDINDWG
 40
0.0000000116
  9
$TDUSRTIMER
 40
0.0000000116
  9
$USRTIMER
 70
     1
  9
$ANGBASE
 50
0.0
  9
$ANGDIR
 70
     0
  9
$PDMODE
 70
     0
  9
$PDSIZE
 40
-1.0
  9
$PLINEWID
 40
0.0
  9
$SPLFRAME
 70
     0
  9
$SPLINETYPE
 70
     6
  9
$SPLINESEGS
 70
     8
  9
$HANDSEED
  5
BF
  9
$SURFTAB1
 70
     6
  9
$SURFTAB2
 70
     6
  9
$SURFTYPE
 70
     6
  9
$SURFU
 70
     6
  9
$SURFV
 70
     6
  9
$UCSBASE
  2

  9
$UCSNAME
  2

  9
$UCSORG
 10
0.0
 20
0.0
 30
0.0
  9
$UCSXDIR
 10
1.0
 20
0.0
 30
0.0
  9
$UCSYDIR
 10
0.0
 20
1.0
 30
0.0
  9
$UCSORTHOREF
  2

  9
$UCSORTHOVIEW
 70
     0
  9
$UCSORGTOP
 10
0.0
 20
0.0
 30
0.0
  9
$UCSORGBOTTOM
 10
0.0
 20
0.0
 30
0.0
  9
$UCSORGLEFT
 10
0.0
 20
0.0
 30
0.0
  9
$UCSORGRIGHT
 10
0.0
 20
0.0
 30
0.0
  9
$UCSORGFRONT
 10
0.0
 20
0.0
 30
0.0
  9
$UCSORGBACK
 10
0.0
 20
0.0
 30
0.0
  9
$PUCSBASE
  2

  9
$PUCSNAME
  2

  9
$PUCSORG
 10
0.0
 20
0.0
 30
0.0
  9
$PUCSXDIR
 10
1.0
 20
0.0
 30
0.0
  9
$PUCSYDIR
 10
0.0
 20
1.0
 30
0.0
  9
$PUCSORTHOREF
  2

  9
$PUCSORTHOVIEW
 70
     0
  9
$PUCSORGTOP
 10
0.0
 20
0.0
 30
0.0
  9
$PUCSORGBOTTOM
 10
0.0
 20
0.0
 30
0.0
  9
$PUCSORGLEFT
 10
0.0
 20
0.0
 30
0.0
  9
$PUCSORGRIGHT
 10
0.0
 20
0.0
 30
0.0
  9
$PUCSORGFRONT
 10
0.0
 20
0.0
 30
0.0
  9
$PUCSORGBACK
 10
0.0
 20
0.0
 30
0.0
  9
$USERI1
 70
     0
  9
$USERI2
 70
     0
  9
$USERI3
 70
     0
  9
$USERI4
 70
     0
  9
$USERI5
 70
     0
  9
$USERR1
 40
0.0
  9
$USERR2
 40
0.0
  9
$USERR3
 40
0.0
  9
$USERR4
 40
0.0
  9
$USERR5
 40
0.0
  9
$WORLDVIEW
 70
     1
  9
$SHADEDGE
 70
     3
  9
$SHADEDIF
 70
    70
  9
$TILEMODE
 70
     1
  9
$MAXACTVP
 70
    64
  9
$PINSBASE
 10
0.0
 20
0.0
 30
0.0
  9
$PLIMCHECK
 70
     0
  9
$PEXTMIN
 10
1.0000000000E+20
 20
1.0000000000E+20
 30
1.0000000000E+20
  9
$PEXTMAX
 10
-1.0000000000E+20
 20
-1.0000000000E+20
 30
-1.0000000000E+20
  9
$PLIMMIN
 10
0.0
 20
0.0
  9
$PLIMMAX
 10
420.0
 20
297.0
  9
$UNITMODE
 70
     0
  9
$VISRETAIN
 70
     1
  9
$PLINEGEN
 70
     0
  9
$PSLTSCALE
 70
     1
  9
$TREEDEPTH
 70
  3020
  9
$CMLSTYLE
  2
Standard
  9
$CMLJUST
 70
     0
  9
$CMLSCALE
 40
20.0
  9
$PROXYGRAPHICS
 70
     1
  9
$MEASUREMENT
 70
     1
  9
$CELWEIGHT
370
    -1
  9
$ENDCAPS
280
     0
  9
$JOINSTYLE
280
     0
  9
$LWDISPLAY
290
     1
  9
$INSUNITS
 70
     4
  9
$HYPERLINKBASE
  1

  9
$STYLESHEET
  1

  9
$XEDIT
290
     1
  9
$CEPSNTYPE
380
     0
  9
$PSTYLEMODE
290
     1
  9
$FINGERPRINTGUID
  2
{3a3f636b-783f-4e1d-aeb1-d2222ca9e02e}
  9
$VERSIONGUID
  2
{FAEB1C32-E019-11D5-929B-00C0DF256EC4}
  9
$EXTNAMES
290
     1
  9
$PSVPSCALE
 40
0.0
  9
$OLESTARTUP
290
     0
  0
ENDSEC
  0
SECTION
  2
CLASSES
  0
CLASS
  1
ACDBDICTIONARYWDFLT
  2
AcDbDictionaryWithDefault
  3
ObjectDBX Classes
 90
        0
280
     0
281
     0
  0
CLASS
  1
VISUALSTYLE
  2
AcDbVisualStyle
  3
ObjectDBX Classes
 90
     4095
280
     0
281
     0
  0
CLASS
  1
MATERIAL
  2
AcDbMaterial
  3
ObjectDBX Classes
 90
     1153
280
     0
281
     0
  0
CLASS
  1
SCALE
  2
AcDbScale
  3
ObjectDBX Classes
 90
     1153
280
     0
281
     0
  0
CLASS
  1
TABLESTYLE
  2
AcDbTableStyle
  3
ObjectDBX Classes
 90
     4095
280
     0
281
     0
  0
CLASS
  1
MLEADERSTYLE
  2
AcDbMLeaderStyle
  3
ACDB_MLEADERSTYLE_CLASS
 90
     4095
280
     0
281
     0
  0
CLASS
  1
SUN
  2
AcDbSun
  3
SCENEOE
 90
     1153
280
     0
281
     0
  0
CLASS
  1
ACDBPLACEHOLDER
  2
AcDbPlaceHolder
  3
ObjectDBX Classes
 90
        0
280
     0
281
     0
  0
CLASS
  1
LAYOUT
  2
AcDbLayout
  3
ObjectDBX Classes
 90
        0
280
     0
281
     0
  0
ENDSEC
  0
SECTION
  2
TABLES
  0
TABLE
  2
VPORT
  5
8
330
0
100
AcDbSymbolTable
 70
     1
  0
VPORT
  5
29
330
8
100
AcDbSymbolTableRecord
100
AcDbViewportTableRecord
  2
*Active
 70
     0
 10
0.0
 20
0.0
 11
1.0
 21
1.0
 12
139.7
 22
107.95
 13
0.0
 23
0.0
 14
10.0
 24
10.0
 15
10.0
 25
10.0
 16
0.0
 26
0.0
 36
1.0
 17
0.0
 27
0.0
 37
0.0
 40
215.9
 41
1.2941176471
 42
50.0
 43
0.0
 44
0.0
 50
0.0
 51
0.0
 71
     0
 72
  2000
 73
     1
 74
     3
 75
     0
 76
     0
 77
     0
 78
     0
281
     0
 65
     1
110
0.0
120
0.0
130
0.0
111
1.0
121
0.0
131
0.0
112
0.0
122
1.0
132
0.0
 79
     0
146
0.0
  0
ENDTAB
  0
TABLE
  2
LTYPE
  5
5
330
0
100
AcDbSymbolTable
 70
     6
  0
LTYPE
  5
14
330
5
100
AcDbSymbolTableRecord
100
AcDbLinetypeTableRecord
  2
ByBlock
 70
     0
  3

 72
    65
 73
     0
 40
0.0
  0
LTYPE
  5
15
330
5
100
AcDbSymbolTableRecord
100
AcDbLinetypeTableRecord
  2
ByLayer
 70
     0
  3

 72
    65
 73
     0
 40
0.0
  0
LTYPE
  5
16
330
5
100
AcDbSymbolTableRecord
100
AcDbLinetypeTableRecord
  2
Continuous
 70
     0
  3
Solid line
 72
    65
 73
     0
 40
0.0
  0
LTYPE
  5
6E
330
5
100
AcDbSymbolTableRecord
100
AcDbLinetypeTableRecord
  2
HIDDEN
 70
     0
  3
Hidden __ __ __ __ __ __ __ __ __ __ __ __ __ __
 72
    65
 73
     2
 40
1.905
 49
1.27
 74
     0
 49
-0.635
 74
     0
  0
LTYPE
  5
6F
330
5
100
AcDbSymbolTableRecord
100
AcDbLinetypeTableRecord
  2
PHANTOM
 70
     0
  3
Phantom ______  __  __  ______  __  __  ______
 72
    65
 73
     6
 40
12.7
 49
6.35
 74
     0
 49
-1.27
 74
     0
 49
1.27
 74
     0
 49
-1.27
 74
     0
 49
1.27
 74
     0
 49
-1.27
 74
     0
  0
LTYPE
  5
70
330
5
100
AcDbSymbolTableRecord
100
AcDbLinetypeTableRecord
  2
CENTER
 70
     0
  3
Center ____ _ ____ _ ____ _ ____ _ ____ _ ____
 72
    65
 73
     4
 40
10.16
 49
6.35
 74
     0
 49
-1.27
 74
     0
 49
1.27
 74
     0
 49
-1.27
 74
     0
  0
LTYPE
  5
71
330
5
100
AcDbSymbolTableRecord
100
AcDbLinetypeTableRecord
  2
CENTERX2
 70
     0
  3
Center (2x) ________  __  ________  __  _____
 72
    65
 73
     4
 40
20.32
 49
12.7
 74
     0
 49
-2.54
 74
     0
 49
2.54
 74
     0
 49
-2.54
 74
     0
  0
LTYPE
  5
72
330
5
100
AcDbSymbolTableRecord
100
AcDbLinetypeTableRecord
  2
DOT2
 70
     0
  3
Dot (.5x) ........................................
 72
    65
 73
     2
 40
0.635
 49
0.0
 74
     0
 49
-0.635
 74
     0
  0
ENDTAB
  0
TABLE
  2
LAYER
  5
2
330
0
100
AcDbSymbolTable
 70
    17
  0
LAYER
  5
10
330
2
100
AcDbSymbolTableRecord
100
AcDbLayerTableRecord
  2
0
 70
     0
 62
     7
  6
Continuous
370
    -3
390
F
  0
LAYER
  5
73
330
2
100
AcDbSymbolTableRecord
100
AcDbLayerTableRecord
  2
FORMAT
 70
     0
 62
     7
  6
Continuous
370
    -3
390
F
  0
LAYER
  5
74
330
2
100
AcDbSymbolTableRecord
100
AcDbLayerTableRecord
  2
YARDIMCI_GEOMETRI
 70
     0
 62
    -6
  6
Continuous
290
     0
370
    -3
390
F
  0
LAYER
  5
75
330
2
100
AcDbSymbolTableRecord
100
AcDbLayerTableRecord
  2
SAYFA_CERCEVESI
 70
     0
 62
     7
  6
Continuous
370
    25
390
F
  0
LAYER
  5
76
330
2
100
AcDbSymbolTableRecord
100
AcDbLayerTableRecord
  2
ANTET
 70
     0
 62
     7
  6
Continuous
370
    -3
390
F
  0
LAYER
  5
77
330
2
100
AcDbSymbolTableRecord
100
AcDbLayerTableRecord
  2
OLCU
 70
     0
 62
   150
  6
Continuous
370
    -3
390
F
  0
LAYER
  5
78
330
2
100
AcDbSymbolTableRecord
100
AcDbLayerTableRecord
  2
METIN
 70
     0
 62
    96
  6
Continuous
370
    -3
390
F
  0
LAYER
  5
79
330
2
100
AcDbSymbolTableRecord
100
AcDbLayerTableRecord
  2
BALON
 70
     0
 62
     5
  6
Continuous
370
    -3
390
F
  0
LAYER
  5
7A
330
2
100
AcDbSymbolTableRecord
100
AcDbLayerTableRecord
  2
VURGU
 70
     0
 62
     7
  6
Continuous
370
    -3
390
F
  0
LAYER
  5
7B
330
2
100
AcDbSymbolTableRecord
100
AcDbLayerTableRecord
  2
SILIK
 70
     0
 62
     7
  6
Continuous
370
    -3
390
F
  0
LAYER
  5
7C
330
2
100
AcDbSymbolTableRecord
100
AcDbLayerTableRecord
  2
MODEL
 70
     0
 62
     7
  6
Continuous
370
    -3
390
F
  0
LAYER
  5
7D
330
2
100
AcDbSymbolTableRecord
100
AcDbLayerTableRecord
  2
DETAYLANDıRMA
 70
     0
 62
   190
  6
Continuous
370
    -3
390
F
  0
LAYER
  5
7E
330
2
100
AcDbSymbolTableRecord
100
AcDbLayerTableRecord
  2
TOLERANS
 70
     0
 62
   230
  6
Continuous
370
    -3
390
F
  0
LAYER
  5
7F
330
2
100
AcDbSymbolTableRecord
100
AcDbLayerTableRecord
  2
MERKEZ_CIZGILERI
 70
     0
 62
    30
  6
Continuous
370
    -3
390
F
  0
LAYER
  5
80
330
2
100
AcDbSymbolTableRecord
100
AcDbLayerTableRecord
  2
KESIT-DETAY_CIZGILERI
 70
     0
 62
     7
  6
Continuous
370
    -3
390
F
  0
LAYER
  5
81
330
2
100
AcDbSymbolTableRecord
100
AcDbLayerTableRecord
  2
\U+041E\U+0421\U+0415\U+0412\U+042B\U+0415
 70
     0
 62
     7
  6
Continuous
370
    -3
390
F
  0
LAYER
  5
82
330
2
100
AcDbSymbolTableRecord
100
AcDbLayerTableRecord
  2
\U+0412\U+041E\U+0414\U+042F\U+041D\U+042B\U+0415_\U+0417\U+041D\U+0410\U+041A\U+0418
 70
     0
 62
    11
  6
Continuous
370
    -3
390
F
  0
ENDTAB
  0
TABLE
  2
STYLE
  5
3
330
0
100
AcDbSymbolTable
 70
     1
  0
STYLE
  5
11
330
3
100
AcDbSymbolTableRecord
100
AcDbTextStyleTableRecord
  2
Standard
 70
     0
 40
0.0
 41
1.0
 50
0.0
 71
     0
 42
3.5
  3
txt
  4

  0
ENDTAB
  0
TABLE
  2
VIEW
  5
6
330
0
100
AcDbSymbolTable
 70
     0
  0
ENDTAB
  0
TABLE
  2
UCS
  5
7
330
0
100
AcDbSymbolTable
 70
     0
  0
ENDTAB
  0
TABLE
  2
APPID
  5
9
330
0
100
AcDbSymbolTable
 70
     1
  0
APPID
  5
12
330
9
100
AcDbSymbolTableRecord
100
AcDbRegAppTableRecord
  2
ACAD
 70
     0
  0
ENDTAB
  0
TABLE
  2
DIMSTYLE
  5
A
330
0
100
AcDbSymbolTable
 70
     1
100
AcDbDimStyleTable
  0
DIMSTYLE
105
27
330
A
100
AcDbSymbolTableRecord
100
AcDbDimStyleTableRecord
  2
ISO-25
 70
     0
 41
2.5
 42
0.625
 43
3.75
 44
1.25
 73
     0
 74
     0
 77
     1
 78
     8
140
2.5
141
2.5
143
0.0393700787
147
0.625
171
     3
172
     1
178
     0
271
     2
272
     2
274
     3
278
    44
283
     0
284
     8
340
11
  0
ENDTAB
  0
TABLE
  2
BLOCK_RECORD
  5
1
330
0
100
AcDbSymbolTable
 70
     2
  0
BLOCK_RECORD
  5
1F
330
1
100
AcDbSymbolTableRecord
100
AcDbBlockTableRecord
  2
*Model_Space
340
22
  0
BLOCK_RECORD
  5
1B
330
1
100
AcDbSymbolTableRecord
100
AcDbBlockTableRecord
  2
*Paper_Space
340
1E
  0
BLOCK_RECORD
  5
23
330
1
100
AcDbSymbolTableRecord
100
AcDbBlockTableRecord
  2
*Paper_Space0
340
26
  0
BLOCK_RECORD
  5
A2
330
1
100
AcDbSymbolTableRecord
100
AcDbBlockTableRecord
  2
SW_CENTERMARKSYMBOL_0
340
0
102
{BLKREFS
331
AD
102
}
  0
ENDTAB
  0
ENDSEC
  0
SECTION
  2
BLOCKS
  0
BLOCK
  5
20
330
1F
100
AcDbEntity
  8
0
100
AcDbBlockBegin
  2
*Model_Space
 70
     0
 10
0.0
 20
0.0
 30
0.0
  3
*Model_Space
  1

  0
ENDBLK
  5
21
330
1F
100
AcDbEntity
  8
0
100
AcDbBlockEnd
  0
BLOCK
  5
1C
330
1B
100
AcDbEntity
 67
     1
  8
0
100
AcDbBlockBegin
  2
*Paper_Space
 70
     0
 10
0.0
 20
0.0
 30
0.0
  3
*Paper_Space
  1

  0
ENDBLK
  5
1D
330
1B
100
AcDbEntity
 67
     1
  8
0
100
AcDbBlockEnd
  0
BLOCK
  5
24
330
23
100
AcDbEntity
  8
0
100
AcDbBlockBegin
  2
*Paper_Space0
 70
     0
 10
0.0
 20
0.0
 30
0.0
  3
*Paper_Space0
  1

  0
ENDBLK
  5
25
330
23
100
AcDbEntity
  8
0
100
AcDbBlockEnd
  0
BLOCK
  5
A3
330
A2
100
AcDbEntity
  8
0
100
AcDbBlockBegin
  2
SW_CENTERMARKSYMBOL_0
 70
     0
 10
0.0
 20
0.0
 30
0.0
  3
SW_CENTERMARKSYMBOL_0
  1

  0
LINE
  5
A5
330
A2
100
AcDbEntity
  8
FORMAT
 62
     0
100
AcDbLine
 10
0.0
 20
0.0
 30
0.0
 11
0.0
 21
2.5
 31
0.0
  0
LINE
  5
A6
330
A2
100
AcDbEntity
  8
FORMAT
 62
     0
100
AcDbLine
 10
0.0
 20
0.0
 30
0.0
 11
-2.5
 21
0.0
 31
0.0
  0
LINE
  5
A7
330
A2
100
AcDbEntity
  8
FORMAT
 62
     0
100
AcDbLine
 10
0.0
 20
0.0
 30
0.0
 11
0.0
 21
-2.5
 31
0.0
  0
LINE
  5
A8
330
A2
100
AcDbEntity
  8
FORMAT
 62
     0
100
AcDbLine
 10
0.0
 20
0.0
 30
0.0
 11
2.5
 21
0.0
 31
0.0
  0
LINE
  5
A9
330
A2
100
AcDbEntity
  8
FORMAT
 62
     0
100
AcDbLine
 10
0.0
 20
5.0
 30
0.0
 11
0.0
 21
160.0
 31
0.0
  0
LINE
  5
AA
330
A2
100
AcDbEntity
  8
FORMAT
 62
     0
100
AcDbLine
 10
-5.0
 20
0.0
 30
0.0
 11
-160.0
 21
0.0
 31
0.0
  0
LINE
  5
AB
330
A2
100
AcDbEntity
  8
FORMAT
 62
     0
100
AcDbLine
 10
0.0
 20
-5.0
 30
0.0
 11
0.0
 21
-160.0
 31
0.0
  0
LINE
  5
AC
330
A2
100
AcDbEntity
  8
FORMAT
 62
     0
100
AcDbLine
 10
5.0
 20
0.0
 30
0.0
 11
160.0
 21
0.0
 31
0.0
  0
ENDBLK
  5
A4
330
A2
100
AcDbEntity
  8
0
100
AcDbBlockEnd
  0
ENDSEC
  0
SECTION
  2
ENTITIES
  0
LINE
  5
83
330
1F
100
AcDbEntity
  8
0
  6
Continuous
 62
     7
370
    25
100
AcDbLine
 10
122.9359850382
 20
471.7877678135
 30
0.0
 11
-26.2447278478
 21
213.3991935855
 31
0.0
  0
LINE
  5
84
330
1F
100
AcDbEntity
  8
0
  6
Continuous
 62
     7
370
    25
100
AcDbLine
 10
288.7552721522
 20
128.9951979697
 30
0.0
 11
395.7339872303
 21
314.2877678135
 31
0.0
  0
LINE
  5
85
330
1F
100
AcDbEntity
  8
0
  6
Continuous
 62
     7
370
    25
100
AcDbLine
 10
-26.2447278478
 20
213.3991935855
 30
0.0
 11
-26.2447278478
 21
-84.9622321865
 31
0.0
  0
LINE
  5
86
330
1F
100
AcDbEntity
  8
0
  6
Continuous
 62
     7
370
    25
100
AcDbLine
 10
288.7552721522
 20
-84.9622321865
 30
0.0
 11
288.7552721522
 21
128.9951979697
 31
0.0
  0
LINE
  5
87
330
1F
100
AcDbEntity
  8
0
  6
Continuous
 62
     7
370
    25
100
AcDbLine
 10
259.3349861343
 20
393.0377678135
 30
0.0
 11
395.7339872303
 21
314.2877678135
 31
0.0
  0
LINE
  5
88
330
1F
100
AcDbEntity
  8
0
  6
Continuous
 62
     7
370
    25
100
AcDbLine
 10
122.9359850382
 20
471.7877678135
 30
0.0
 11
259.3349861343
 21
393.0377678135
 31
0.0
  0
LINE
  5
89
330
1F
100
AcDbEntity
  8
0
  6
Continuous
 62
     7
370
    25
100
AcDbLine
 10
288.7552721522
 20
128.9951979697
 30
0.0
 11
-26.2447278478
 21
213.3991935855
 31
0.0
  0
LINE
  5
8A
330
1F
100
AcDbEntity
  8
0
  6
Continuous
 62
     7
370
    25
100
AcDbLine
 10
131.2552721522
 20
-84.9622321865
 30
0.0
 11
288.7552721522
 21
-84.9622321865
 31
0.0
  0
LINE
  5
8B
330
1F
100
AcDbEntity
  8
0
  6
Continuous
 62
     7
370
    25
100
AcDbLine
 10
-26.2447278478
 20
-84.9622321865
 30
0.0
 11
131.2552721522
 21
-84.9622321865
 31
0.0
  0
LINE
  5
8C
330
1F
100
AcDbEntity
  8
0
  6
Continuous
 62
     7
370
    25
100
AcDbLine
 10
-565.938511043
 20
393.0377678135
 30
0.0
 11
-565.938511043
 21
171.1971957776
 31
0.0
  0
LINE
  5
8D
330
1F
100
AcDbEntity
  8
0
  6
Continuous
 62
     7
370
    25
100
AcDbLine
 10
-250.938511043
 20
171.1971957776
 30
0.0
 11
-250.938511043
 21
393.0377678135
 31
0.0
  0
LINE
  5
8E
330
1F
100
AcDbEntity
  8
0
  6
Continuous
 62
     7
370
    25
100
AcDbLine
 10
-565.938511043
 20
171.1971957776
 30
0.0
 11
-565.938511043
 21
-84.9622321865
 31
0.0
  0
LINE
  5
8F
330
1F
100
AcDbEntity
  8
0
  6
Continuous
 62
     7
370
    25
100
AcDbLine
 10
-250.938511043
 20
-84.9622321865
 30
0.0
 11
-250.938511043
 21
171.1971957776
 31
0.0
  0
LWPOLYLINE
  5
90
330
1F
100
AcDbEntity
  8
0
  6
Continuous
 62
     7
370
    25
100
AcDbPolyline
 90
      134
 70
   128
 43
0.0
 10
-565.938511043
 20
393.0377678135
 10
-565.7627889999
 20
389.3188444033
 10
-565.2360149754
 20
385.6082193654
 10
-564.3593644081
 20
381.9141725552
 10
-563.1347934484
 20
378.2449468356
 10
-561.5650345929
 20
374.608729684
 10
-559.6535905874
 20
371.0136349226
 10
-557.4047266108
 20
367.4676846136
 10
-554.8234607582
 20
363.9787911587
 10
-551.9155528428
 20
360.5547396435
 10
-548.6874915444
 20
357.2031704657
 10
-545.14647993
 20
353.9315622868
 10
-541.300419381
 20
350.7472153437
 10
-537.1578919625
 20
347.6572351599
 10
-532.7281412729
 20
344.6685166892
 10
-528.0210518182
 20
341.7877289312
 10
-523.0471269555
 20
339.0213000499
 10
-517.8174654562
 20
336.3754030299
 10
-512.3437367399
 20
333.855941902
 10
-506.6381548357
 20
331.4685385691
 10
-500.713451128
 20
329.2185202617
 10
-494.5828459473
 20
327.1109076503
 10
-488.260019071
 20
325.1504036429
 10
-481.7590791983
 20
323.3413828904
 10
-475.094532468
 20
321.6878820256
 10
-468.2812500899
 20
320.1935906554
 10
-461.334435161
 20
318.8618431282
 10
-454.269588742
 20
317.6956110934
 10
-447.1024752676
 20
316.6974968708
 10
-439.8490873706
 20
315.8697276434
 10
-432.5256101955
 20
315.2141504881
 10
-425.1483852836
 20
314.7322282539
 10
-417.7338741083
 20
314.4250362977
 10
-410.2986213433
 20
314.2932600849
 10
-402.8592179449
 20
314.3371936597
 10
-395.4322641311
 20
314.5567389892
 10
-388.0343323398
 20
314.9514061819
 10
-380.6819302497
 20
315.5203145809
 10
-373.3914639449
 20
316.2621947292
 10
-366.1792013062
 20
317.175391202
 10
-359.061235712
 20
318.257866301
 10
-352.0534501267
 20
319.5072046009
 10
-345.1714816601
 20
320.9206183394
 10
-338.430686675
 20
322.4949536379
 10
-331.8461065206
 20
324.2266975386
 10
-325.4324339701
 20
326.1119858439
 10
-319.2039804349
 20
328.1466117382
 10
-313.1746440302
 20
330.3260351756
 10
-307.3578785631
 20
332.6453930103
 10
-301.7666635119
 20
335.099509848
 10
-296.4134750637
 20
337.6829095943
 10
-291.3102582751
 20
340.3898276744
 10
-286.4684004183
 20
343.2142238955
 10
-281.8987055713
 20
346.1497959252
 10
-277.6113705104
 20
349.1899933544
 10
-273.6159619563
 20
352.3280323139
 10
-269.9213952279
 20
355.5569106118
 10
-266.5359143483
 20
358.869423358
 10
-263.4670736491
 20
362.2581790412
 10
-260.7217209139
 20
365.7156160225
 10
-258.305982098
 20
369.2340194081
 10
-256.2252476595
 20
372.8055382641
 10
-254.4841605304
 20
376.4222031356
 10
-253.086605757
 20
380.0759438289
 10
-252.0357018305
 20
383.7586074199
 10
-251.3337937284
 20
387.461976446
 10
-250.9824476821
 20
391.177787243
 10
-250.9824476821
 20
394.8977483839
 10
-251.3337937284
 20
398.6135591809
 10
-252.0357018305
 20
402.3169282071
 10
-253.086605757
 20
405.9995917981
 10
-254.4841605304
 20
409.6533324914
 10
-256.2252476595
 20
413.2699973628
 10
-258.305982098
 20
416.8415162189
 10
-260.7217209139
 20
420.3599196044
 10
-263.4670736491
 20
423.8173565857
 10
-266.5359143483
 20
427.206112269
 10
-269.921395228
 20
430.5186250152
 10
-273.6159619563
 20
433.747503313
 10
-277.6113705104
 20
436.8855422726
 10
-281.8987055713
 20
439.9257397018
 10
-286.4684004183
 20
442.8613117315
 10
-291.3102582751
 20
445.6857079526
 10
-296.4134750637
 20
448.3926260326
 10
-301.7666635119
 20
450.976025779
 10
-307.3578785631
 20
453.4301426167
 10
-313.1746440302
 20
455.7495004513
 10
-319.2039804349
 20
457.9289238888
 10
-325.4324339701
 20
459.9635497831
 10
-331.8461065206
 20
461.8488380883
 10
-338.430686675
 20
463.5805819891
 10
-345.1714816601
 20
465.1549172876
 10
-352.0534501267
 20
466.5683310261
 10
-359.061235712
 20
467.817669326
 10
-366.1792013062
 20
468.900144425
 10
-373.3914639449
 20
469.8133408978
 10
-380.6819302497
 20
470.5552210461
 10
-388.0343323398
 20
471.1241294451
 10
-395.4322641311
 20
471.5187966378
 10
-402.8592179449
 20
471.7383419672
 10
-410.2986213434
 20
471.7822755421
 10
-417.7338741083
 20
471.6504993293
 10
-425.1483852836
 20
471.3433073731
 10
-432.5256101955
 20
470.8613851388
 10
-439.8490873706
 20
470.2058079836
 10
-447.1024752676
 20
469.3780387562
 10
-454.269588742
 20
468.3799245336
 10
-461.334435161
 20
467.2136924988
 10
-468.2812500899
 20
465.8819449716
 10
-475.094532468
 20
464.3876536014
 10
-481.7590791983
 20
462.7341527366
 10
-488.260019071
 20
460.9251319841
 10
-494.5828459473
 20
458.9646279767
 10
-500.713451128
 20
456.8570153653
 10
-506.6381548357
 20
454.6069970578
 10
-512.3437367399
 20
452.219593725
 10
-517.8174654562
 20
449.7001325971
 10
-523.0471269555
 20
447.054235577
 10
-528.0210518182
 20
444.2878066958
 10
-532.7281412729
 20
441.4070189378
 10
-537.1578919625
 20
438.4183004671
 10
-541.300419381
 20
435.3283202832
 10
-545.14647993
 20
432.1439733402
 10
-548.6874915444
 20
428.8723651613
 10
-551.9155528428
 20
425.5207959835
 10
-554.8234607582
 20
422.0967444682
 10
-557.4047266108
 20
418.6078510134
 10
-559.6535905874
 20
415.0619007044
 10
-561.5650345929
 20
411.466805943
 10
-563.1347934484
 20
407.8305887913
 10
-564.3593644081
 20
404.1613630717
 10
-565.2360149754
 20
400.4673162616
 10
-565.7627889999
 20
396.7566912237
 10
-565.938511043
 20
393.0377678135
  0
ELLIPSE
  5
91
330
1F
100
AcDbEntity
  8
0
  6
Continuous
 62
     7
370
    25
100
AcDbEllipse
 10
-408.438511043
 20
171.1971957776
 30
0.0
 11
157.5
 21
0.0
 31
0.0
210
0.0
220
0.0
230
1.0
 40
0.2679491924
 41
3.141592653589849
 42
6.283185307179586
  0
LWPOLYLINE
  5
92
330
1F
100
AcDbEntity
  8
0
  6
Continuous
 62
     7
370
    25
100
AcDbPolyline
 90
      121
 70
   128
 43
0.0
 10
-537.338511043
 20
393.0377678135
 10
-537.1618580728
 20
396.4108201933
 10
-536.6323833559
 20
399.7746272711
 10
-535.7515381457
 20
403.1199690853
 10
-534.5217367776
 20
406.4376762867
 10
-532.9463500516
 20
409.7186552703
 10
-531.0296959934
 20
412.9539131009
 10
-528.7770280185
 20
416.1345821617
 10
-526.1945205331
 20
419.2519444597
 10
-523.2892520109
 20
422.2974555217
 10
-520.0691855908
 20
425.2627678135
 10
-516.5431472511
 20
428.1397536202
 10
-512.7208016179
 20
430.9205273237
 10
-508.6126254748
 20
433.5974670166
 10
-504.229879047
 20
436.1632353933
 10
-499.5845751379
 20
438.610799861
 10
-494.6894462026
 20
440.9334518155
 10
-489.5579094493
 20
443.1248250294
 10
-484.2040300635
 20
445.1789131009
 10
-478.6424826564
 20
447.0900859176
 10
-472.888511043
 20
448.8531050874
 10
-466.9578864594
 20
450.4631382974
 10
-460.8668643354
 20
451.9157725585
 10
-454.6321397394
 20
453.2070263012
 10
-448.2708016179
 20
454.3333602887
 10
-441.8002859567
 20
455.2916873178
 10
-435.2383279894
 20
456.0793806808
 10
-428.6029135867
 20
456.6942813648
 10
-421.9122299582
 20
457.13470397
 10
-415.1846158027
 20
457.3994413284
 10
-408.438511043
 20
457.4877678135
 10
-401.6924062833
 20
457.3994413284
 10
-394.9647921278
 20
457.13470397
 10
-388.2741084993
 20
456.6942813648
 10
-381.6386940966
 20
456.0793806808
 10
-375.0767361293
 20
455.2916873178
 10
-368.606220468
 20
454.3333602887
 10
-362.2448823466
 20
453.2070263012
 10
-356.0101577505
 20
451.9157725585
 10
-349.9191356265
 20
450.4631382974
 10
-343.988511043
 20
448.8531050874
 10
-338.2345394295
 20
447.0900859176
 10
-332.6729920225
 20
445.1789131009
 10
-327.3191126366
 20
443.1248250294
 10
-322.1875758833
 20
440.9334518155
 10
-317.292446948
 20
438.610799861
 10
-312.6471430389
 20
436.1632353933
 10
-308.2643966112
 20
433.5974670166
 10
-304.156220468
 20
430.9205273237
 10
-300.3338748348
 20
428.1397536202
 10
-296.8078364952
 20
425.2627678135
 10
-293.5877700751
 20
422.2974555217
 10
-290.6825015528
 20
419.2519444597
 10
-288.0999940675
 20
416.1345821617
 10
-285.8473260925
 20
412.9539131009
 10
-283.9306720343
 20
409.7186552703
 10
-282.3552853084
 20
406.4376762867
 10
-281.1254839403
 20
403.1199690853
 10
-280.24463873
 20
399.7746272711
 10
-279.7151640131
 20
396.4108201933
 10
-279.538511043
 20
393.0377678135
 10
-279.7151640131
 20
389.6647154336
 10
-280.24463873
 20
386.3009083559
 10
-281.1254839403
 20
382.9555665416
 10
-282.3552853084
 20
379.6378593403
 10
-283.9306720343
 20
376.3568803566
 10
-285.8473260925
 20
373.121622526
 10
-288.0999940675
 20
369.9409534653
 10
-290.6825015528
 20
366.8235911672
 10
-293.5877700751
 20
363.7780801053
 10
-296.8078364952
 20
360.8127678135
 10
-300.3338748348
 20
357.9357820068
 10
-304.156220468
 20
355.1550083032
 10
-308.2643966112
 20
352.4780686103
 10
-312.6471430389
 20
349.9123002337
 10
-317.292446948
 20
347.464735766
 10
-322.1875758833
 20
345.1420838115
 10
-327.3191126366
 20
342.9507105976
 10
-332.6729920225
 20
340.896622526
 10
-338.2345394295
 20
338.9854497094
 10
-343.988511043
 20
337.2224305396
 10
-349.9191356265
 20
335.6123973295
 10
-356.0101577505
 20
334.1597630684
 10
-362.2448823466
 20
332.8685093257
 10
-368.606220468
 20
331.7421753383
 10
-375.0767361293
 20
330.7838483092
 10
-381.6386940966
 20
329.9961549462
 10
-388.2741084993
 20
329.3812542621
 10
-394.9647921278
 20
328.940831657
 10
-401.6924062833
 20
328.6760942986
 10
-408.438511043
 20
328.5877678135
 10
-415.1846158027
 20
328.6760942986
 10
-421.9122299582
 20
328.940831657
 10
-428.6029135867
 20
329.3812542621
 10
-435.2383279894
 20
329.9961549462
 10
-441.8002859567
 20
330.7838483092
 10
-448.2708016179
 20
331.7421753383
 10
-454.6321397394
 20
332.8685093257
 10
-460.8668643354
 20
334.1597630684
 10
-466.9578864594
 20
335.6123973295
 10
-472.888511043
 20
337.2224305396
 10
-478.6424826564
 20
338.9854497094
 10
-484.2040300635
 20
340.896622526
 10
-489.5579094493
 20
342.9507105976
 10
-494.6894462026
 20
345.1420838115
 10
-499.5845751379
 20
347.464735766
 10
-504.229879047
 20
349.9123002337
 10
-508.6126254748
 20
352.4780686103
 10
-512.7208016179
 20
355.1550083032
 10
-516.5431472511
 20
357.9357820068
 10
-520.0691855908
 20
360.8127678135
 10
-523.2892520109
 20
363.7780801053
 10
-526.1945205331
 20
366.8235911672
 10
-528.7770280185
 20
369.9409534653
 10
-531.0296959934
 20
373.121622526
 10
-532.9463500516
 20
376.3568803566
 10
-534.5217367776
 20
379.6378593403
 10
-535.7515381457
 20
382.9555665416
 10
-536.6323833559
 20
386.3009083559
 10
-537.1618580728
 20
389.6647154336
 10
-537.338511043
 20
393.0377678135
  0
LINE
  5
93
330
1F
100
AcDbEntity
  8
0
  6
Continuous
 62
     7
370
    25
100
AcDbLine
 10
-565.938511043
 20
-84.9622321865
 30
0.0
 11
-250.938511043
 21
-84.9622321865
 31
0.0
  0
LINE
  5
94
330
1F
100
AcDbEntity
  8
0
  6
Continuous
 62
     7
370
    25
100
AcDbLine
 10
528.1816820762
 20
393.0377678135
 30
0.0
 11
528.1816820762
 21
171.1971957776
 31
0.0
  0
LINE
  5
95
330
1F
100
AcDbEntity
  8
0
  6
Continuous
 62
     7
370
    25
100
AcDbLine
 10
843.1816820762
 20
171.1971957776
 30
0.0
 11
843.1816820762
 21
393.0377678135
 31
0.0
  0
LINE
  5
96
330
1F
100
AcDbEntity
  8
0
  6
Continuous
 62
     7
370
    25
100
AcDbLine
 10
528.1816820762
 20
171.1971957776
 30
0.0
 11
528.1816820762
 21
-84.9622321865
 31
0.0
  0
LINE
  5
97
330
1F
100
AcDbEntity
  8
0
  6
Continuous
 62
     7
370
    25
100
AcDbLine
 10
843.1816820762
 20
-84.9622321865
 30
0.0
 11
843.1816820762
 21
171.1971957776
 31
0.0
  0
LWPOLYLINE
  5
98
330
1F
100
AcDbEntity
  8
0
  6
Continuous
 62
     7
370
    25
100
AcDbPolyline
 90
       69
 70
   128
 43
0.0
 10
528.1816820762
 20
393.0377678135
 10
528.2256187154
 20
394.8977483839
 10
528.5769647616
 20
398.6135591809
 10
529.2788728638
 20
402.3169282071
 10
530.3297767903
 20
405.9995917981
 10
531.7273315637
 20
409.6533324914
 10
533.4684186928
 20
413.2699973628
 10
535.5491531313
 20
416.8415162189
 10
537.9648919471
 20
420.3599196044
 10
540.7102446824
 20
423.8173565857
 10
543.7790853816
 20
427.206112269
 10
547.1645662612
 20
430.5186250152
 10
550.8591329896
 20
433.747503313
 10
554.8545415436
 20
436.8855422726
 10
559.1418766046
 20
439.9257397018
 10
563.7115714516
 20
442.8613117315
 10
568.5534293084
 20
445.6857079526
 10
573.656646097
 20
448.3926260326
 10
579.0098345452
 20
450.976025779
 10
584.6010495964
 20
453.4301426167
 10
590.4178150634
 20
455.7495004513
 10
596.4471514682
 20
457.9289238888
 10
602.6756050034
 20
459.9635497831
 10
609.0892775539
 20
461.8488380883
 10
615.6738577082
 20
463.5805819891
 10
622.4146526934
 20
465.1549172876
 10
629.29662116
 20
466.5683310261
 10
636.3044067453
 20
467.817669326
 10
643.4223723395
 20
468.900144425
 10
650.6346349781
 20
469.8133408978
 10
657.925101283
 20
470.5552210461
 10
665.2775033731
 20
471.1241294451
 10
672.6754351644
 20
471.5187966378
 10
680.1023889782
 20
471.7383419672
 10
687.5417923766
 20
471.7822755421
 10
694.9770451416
 20
471.6504993293
 10
702.3915563169
 20
471.3433073731
 10
709.7687812288
 20
470.8613851388
 10
717.0922584039
 20
470.2058079836
 10
724.3456463009
 20
469.3780387562
 10
731.5127597753
 20
468.3799245336
 10
738.5776061943
 20
467.2136924988
 10
745.5244211231
 20
465.8819449716
 10
752.3377035012
 20
464.3876536014
 10
759.0022502315
 20
462.7341527366
 10
765.5031901043
 20
460.9251319841
 10
771.8260169805
 20
458.9646279767
 10
777.9566221612
 20
456.8570153653
 10
783.881325869
 20
454.6069970578
 10
789.5869077732
 20
452.219593725
 10
795.0606364895
 20
449.7001325971
 10
800.2902979888
 20
447.054235577
 10
805.2642228515
 20
444.2878066958
 10
809.9713123062
 20
441.4070189378
 10
814.4010629957
 20
438.4183004671
 10
818.5435904143
 20
435.3283202832
 10
822.3896509632
 20
432.1439733402
 10
825.9306625777
 20
428.8723651613
 10
829.1587238761
 20
425.5207959835
 10
832.0666317914
 20
422.0967444682
 10
834.6478976441
 20
418.6078510134
 10
836.8967616206
 20
415.0619007044
 10
838.8082056262
 20
411.466805943
 10
840.3779644817
 20
407.8305887913
 10
841.6025354414
 20
404.1613630717
 10
842.4791860086
 20
400.4673162616
 10
843.0059600332
 20
396.7566912237
 10
843.1816820762
 20
393.0377678135
 10
843.1816820762
 20
393.0377678135
  0
ELLIPSE
  5
99
330
1F
100
AcDbEntity
  8
0
  6
Continuous
 62
     7
370
    25
100
AcDbEllipse
 10
685.6816820762
 20
171.1971957776
 30
0.0
 11
157.5
 21
0.0
 31
0.0
210
0.0
220
0.0
230
1.0
 40
0.2679491924
 41
1.570796326794897
 42
3.141592653589849
  0
ELLIPSE
  5
9A
330
1F
100
AcDbEntity
  8
0
  6
Continuous
 62
     7
370
    25
100
AcDbEllipse
 10
685.6816820762
 20
171.1971957776
 30
0.0
 11
157.5
 21
0.0
 31
0.0
210
0.0
220
0.0
230
1.0
 40
0.2679491924
 41
0.0
 42
1.570796326794916
  0
LINE
  5
9B
330
1F
100
AcDbEntity
  8
0
  6
Continuous
 62
     7
370
    25
100
AcDbLine
 10
528.1816820762
 20
-84.9622321865
 30
0.0
 11
843.1816820762
 21
-84.9622321865
 31
0.0
  0
LINE
  5
9C
330
1F
100
AcDbEntity
  8
0
  6
Continuous
 62
     7
370
    25
100
AcDbLine
 10
259.3349861343
 20
964.0319701341
 30
0.0
 11
131.2552721522
 21
964.0319701341
 31
0.0
  0
LINE
  5
9D
330
1F
100
AcDbEntity
  8
0
  6
Continuous
 62
     7
370
    25
100
AcDbLine
 10
131.2552721522
 20
649.0319701341
 30
0.0
 11
259.3349861343
 21
649.0319701341
 31
0.0
  0
CIRCLE
  5
9E
330
1F
100
AcDbEntity
  8
0
  6
Continuous
 62
     7
370
    25
100
AcDbCircle
 10
131.2552721522
 20
806.5319701341
 30
0.0
 40
157.4999999999999
  0
CIRCLE
  5
9F
330
1F
100
AcDbEntity
  8
0
  6
Continuous
 62
     7
370
    25
100
AcDbCircle
 10
131.2552721522
 20
806.5319701341
 30
0.0
 40
128.9
  0
LWPOLYLINE
  5
A0
330
1F
100
AcDbEntity
  8
0
  6
Continuous
 62
     7
370
    25
100
AcDbPolyline
 90
       68
 70
   128
 43
0.0
 10
259.3349861343
 20
964.0319701341
 10
265.7763504302
 20
963.856248091
 10
272.2033415236
 20
963.3294740665
 10
278.6016182844
 20
962.4528234992
 10
284.9569036551
 20
961.2282525395
 10
291.2550165091
 20
959.658493684
 10
297.4819032939
 20
957.7470496785
 10
303.6236693902
 20
955.4981857019
 10
309.6666101162
 20
952.9169198492
 10
315.5972413084
 20
950.0090119339
 10
321.4023294094
 20
946.7809506355
 10
327.0689209978
 20
943.239939021
 10
332.584371692
 20
939.3938784721
 10
337.9363743649
 20
935.2513510536
 10
343.1129866056
 20
930.821600364
 10
348.1026573682
 20
926.1145109093
 10
352.8942527461
 20
921.1405860466
 10
357.4770808164
 20
915.9109245473
 10
361.8409154977
 20
910.437195831
 10
365.9760193683
 20
904.7316139268
 10
369.8731653948
 20
898.806910219
 10
373.5236575204
 20
892.6763050383
 10
376.9193500697
 20
886.3534781621
 10
380.0526659249
 20
879.8525382893
 10
382.9166134332
 20
873.1879915591
 10
385.5048020077
 20
866.3747091809
 10
387.8114563877
 20
859.4278942521
 10
389.8314295253
 20
852.3630478331
 10
391.5602140706
 20
845.1959343587
 10
392.9939524294
 20
837.9425464617
 10
394.1294453706
 20
830.6190692866
 10
394.9641591655
 20
823.2418443747
 10
395.4962312413
 20
815.8273331994
 10
395.7244743372
 20
808.3920804344
 10
395.6483791534
 20
800.952677036
 10
395.2681154882
 20
793.5257232222
 10
394.5845318584
 20
786.1277914309
 10
393.5991536065
 20
778.7753893408
 10
392.3141794965
 20
771.4849230359
 10
390.7324768083
 20
764.2726603973
 10
388.8575749389
 20
757.1546948031
 10
386.6936575277
 20
750.1469092178
 10
384.2455531204
 20
743.2649407512
 10
381.5187243953
 20
736.5241457661
 10
378.5192559735
 20
729.9395656117
 10
375.2538408419
 20
723.5258930612
 10
371.7297654186
 20
717.297439526
 10
367.9548932937
 20
711.2681031213
 10
363.9376476831
 20
705.4513376542
 10
359.6869926326
 20
699.860122603
 10
355.2124130156
 20
694.5069341548
 10
350.523893369
 20
689.4037173662
 10
345.6318956134
 20
684.5618595094
 10
340.5473357087
 20
679.9921646624
 10
335.2815592962
 20
675.7048296014
 10
329.8463163822
 20
671.7094210474
 10
324.2537351188
 20
668.014854319
 10
318.5162947417
 20
664.6293734394
 10
312.6467977239
 20
661.5605327402
 10
306.6583412083
 20
658.8151800049
 10
300.564287783
 20
656.3994411891
 10
294.3782356641
 20
654.3187067506
 10
288.1139883528
 20
652.5776196215
 10
281.7855238344
 20
651.1800648481
 10
275.4069633876
 20
650.1291609216
 10
268.9925400751
 20
649.4272528194
 10
262.5565669834
 20
649.0759067732
 10
259.3349861343
 20
649.0319701341
  0
LWPOLYLINE
  5
A1
330
1F
100
AcDbEntity
  8
0
  6
Continuous
 62
     7
370
    25
100
AcDbPolyline
 90
       41
 70
   128
 43
0.0
 10
199.8929840088
 20
915.637765173
 10
198.5365632705
 20
914.6366063422
 10
193.7201219316
 20
910.814260709
 10
189.0835263747
 20
906.7060845659
 10
184.6394851858
 20
902.3233381381
 10
180.4001791731
 20
897.678034229
 10
176.3772279795
 20
892.7829052937
 10
172.5816582347
 20
887.6513685404
 10
169.0238733315
 20
882.2974891546
 10
165.7136249111
 20
876.7359417475
 10
162.6599861343
 20
870.9819701341
 10
159.8713268126
 20
865.0513455505
 10
157.3552904675
 20
858.9603234265
 10
155.1187733797
 20
852.7255988305
 10
153.1679056871
 20
846.364260709
 10
151.5080345825
 20
839.8937450478
 10
150.143709657
 20
833.3317870805
 10
149.0786704306
 20
826.6963726777
 10
148.3158361017
 20
820.0056890493
 10
147.8572975462
 20
813.2780748938
 10
147.7043115864
 20
806.5319701341
 10
147.8572975462
 20
799.7858653743
 10
148.3158361017
 20
793.0582512189
 10
149.0786704306
 20
786.3675675904
 10
150.143709657
 20
779.7321531877
 10
151.5080345825
 20
773.1701952203
 10
153.1679056871
 20
766.6996795591
 10
155.1187733797
 20
760.3383414377
 10
157.3552904675
 20
754.1036168416
 10
159.8713268126
 20
748.0125947176
 10
162.6599861343
 20
742.0819701341
 10
165.7136249111
 20
736.3279985206
 10
169.0238733315
 20
730.7664511136
 10
172.5816582347
 20
725.4125717277
 10
176.3772279795
 20
720.2810349744
 10
180.4001791731
 20
715.3859060391
 10
184.6394851858
 20
710.74060213
 10
189.0835263747
 20
706.3578557023
 10
193.7201219316
 20
702.2496795591
 10
198.5365632705
 20
698.4273339259
 10
199.8929840088
 20
697.4261750951
  0
INSERT
  5
AD
330
1F
100
AcDbEntity
  8
FORMAT
 62
     7
100
AcDbBlockReference
  2
SW_CENTERMARKSYMBOL_0
 10
131.2552721522
 20
806.5319701341
 30
0.0
  0
LINE
  5
AE
330
1F
100
AcDbEntity
  8
0
  6
Continuous
 62
     7
370
    25
100
AcDbLine
 10
259.3349861343
 20
-311.3731083446
 30
0.0
 11
131.2552721522
 21
-311.3731083446
 31
0.0
  0
LINE
  5
AF
330
1F
100
AcDbEntity
  8
0
  6
Continuous
 62
     7
370
    25
100
AcDbLine
 10
131.2552721522
 20
-626.3731083446
 30
0.0
 11
259.3349861343
 21
-626.3731083446
 31
0.0
  0
LWPOLYLINE
  5
B0
330
1F
100
AcDbEntity
  8
0
  6
Continuous
 62
     7
370
    25
100
AcDbPolyline
 90
      134
 70
   128
 43
0.0
 10
259.3349861343
 20
-626.3731083446
 10
265.7763504302
 20
-626.1973863015
 10
272.2033415236
 20
-625.670612277
 10
278.6016182844
 20
-624.7939617097
 10
284.9569036551
 20
-623.56939075
 10
291.2550165091
 20
-621.9996318945
 10
297.4819032939
 20
-620.088187889
 10
303.6236693902
 20
-617.8393239124
 10
309.6666101162
 20
-615.2580580598
 10
315.5972413084
 20
-612.3501501444
 10
321.4023294094
 20
-609.122088846
 10
327.0689209978
 20
-605.5810772316
 10
332.584371692
 20
-601.7350166826
 10
337.9363743649
 20
-597.5924892641
 10
343.1129866056
 20
-593.1627385745
 10
348.1026573682
 20
-588.4556491198
 10
352.8942527461
 20
-583.4817242572
 10
357.4770808164
 20
-578.2520627578
 10
361.8409154977
 20
-572.7783340415
 10
365.9760193683
 20
-567.0727521373
 10
369.8731653948
 20
-561.1480484296
 10
373.5236575204
 20
-555.0174432489
 10
376.9193500697
 20
-548.6946163726
 10
380.0526659249
 20
-542.1936764999
 10
382.9166134332
 20
-535.5291297696
 10
385.5048020077
 20
-528.7158473915
 10
387.8114563877
 20
-521.7690324627
 10
389.8314295253
 20
-514.7041860436
 10
391.5602140706
 20
-507.5370725693
 10
392.9939524294
 20
-500.2836846722
 10
394.1294453706
 20
-492.9602074971
 10
394.9641591655
 20
-485.5829825852
 10
395.4962312413
 20
-478.1684714099
 10
395.7244743372
 20
-470.733218645
 10
395.6483791534
 20
-463.2938152466
 10
395.2681154882
 20
-455.8668614327
 10
394.5845318584
 20
-448.4689296414
 10
393.5991536065
 20
-441.1165275513
 10
392.3141794965
 20
-433.8260612465
 10
390.7324768083
 20
-426.6137986079
 10
388.8575749389
 20
-419.4958330136
 10
386.6936575277
 20
-412.4880474283
 10
384.2455531204
 20
-405.6060789617
 10
381.5187243953
 20
-398.8652839766
 10
378.5192559735
 20
-392.2807038222
 10
375.2538408419
 20
-385.8670312718
 10
371.7297654186
 20
-379.6385777365
 10
367.9548932937
 20
-373.6092413318
 10
363.9376476831
 20
-367.7924758647
 10
359.6869926326
 20
-362.2012608135
 10
355.2124130156
 20
-356.8480723653
 10
350.523893369
 20
-351.7448555767
 10
345.6318956134
 20
-346.9029977199
 10
340.5473357087
 20
-342.3333028729
 10
335.2815592962
 20
-338.045967812
 10
329.8463163822
 20
-334.0505592579
 10
324.2537351188
 20
-330.3559925296
 10
318.5162947417
 20
-326.9705116499
 10
312.6467977239
 20
-323.9016709507
 10
306.6583412083
 20
-321.1563182155
 10
300.564287783
 20
-318.7405793996
 10
294.3782356641
 20
-316.6598449611
 10
288.1139883528
 20
-314.918757832
 10
281.7855238344
 20
-313.5212030586
 10
275.4069633876
 20
-312.4702991321
 10
268.9925400751
 20
-311.76839103
 10
262.5565669834
 20
-311.4170449837
 10
256.1134052851
 20
-311.4170449837
 10
249.6774321934
 20
-311.76839103
 10
243.2630088809
 20
-312.4702991321
 10
236.8844484342
 20
-313.5212030587
 10
230.5559839157
 20
-314.918757832
 10
224.2917366044
 20
-316.6598449611
 10
218.1056844855
 20
-318.7405793996
 10
212.0116310602
 20
-321.1563182155
 10
206.0231745446
 20
-323.9016709507
 10
200.1536775268
 20
-326.9705116499
 10
194.4162371497
 20
-330.3559925296
 10
188.8236558864
 20
-334.0505592579
 10
183.3884129723
 20
-338.045967812
 10
178.1226365598
 20
-342.3333028729
 10
173.0380766551
 20
-346.9029977199
 10
168.1460788995
 20
-351.7448555767
 10
163.4575592529
 20
-356.8480723653
 10
158.982979636
 20
-362.2012608135
 10
154.7323245854
 20
-367.7924758647
 10
150.7150789748
 20
-373.6092413318
 10
146.94020685
 20
-379.6385777365
 10
143.4161314266
 20
-385.8670312718
 10
140.150716295
 20
-392.2807038222
 10
137.1512478732
 20
-398.8652839766
 10
134.4244191481
 20
-405.6060789617
 10
131.9763147408
 20
-412.4880474283
 10
129.8123973296
 20
-419.4958330136
 10
127.9374954602
 20
-426.6137986079
 10
126.355792772
 20
-433.8260612465
 10
125.0708186621
 20
-441.1165275513
 10
124.0854404101
 20
-448.4689296414
 10
123.4018567803
 20
-455.8668614327
 10
123.0215931151
 20
-463.2938152466
 10
122.9454979313
 20
-470.733218645
 10
123.1737410272
 20
-478.1684714099
 10
123.705813103
 20
-485.5829825852
 10
124.5405268979
 20
-492.9602074971
 10
125.6760198392
 20
-500.2836846722
 10
127.1097581979
 20
-507.5370725693
 10
128.8385427432
 20
-514.7041860436
 10
130.8585158809
 20
-521.7690324627
 10
133.1651702609
 20
-528.7158473915
 10
135.7533588354
 20
-535.5291297696
 10
138.6173063436
 20
-542.1936764999
 10
141.7506221988
 20
-548.6946163726
 10
145.1463147482
 20
-555.0174432489
 10
148.7968068737
 20
-561.1480484296
 10
152.6939529002
 20
-567.0727521373
 10
156.8290567709
 20
-572.7783340415
 10
161.1928914521
 20
-578.2520627578
 10
165.7757195224
 20
-583.4817242572
 10
170.5673149003
 20
-588.4556491198
 10
175.5569856629
 20
-593.1627385745
 10
180.7335979037
 20
-597.5924892641
 10
186.0856005765
 20
-601.7350166826
 10
191.6010512707
 20
-605.5810772316
 10
197.2676428592
 20
-609.122088846
 10
203.0727309602
 20
-612.3501501444
 10
209.0033621523
 20
-615.2580580598
 10
215.0463028783
 20
-617.8393239124
 10
221.1880689746
 20
-620.088187889
 10
227.4149557594
 20
-621.9996318945
 10
233.7130686134
 20
-623.56939075
 10
240.0683539841
 20
-624.7939617097
 10
246.4666307449
 20
-625.670612277
 10
252.8936218383
 20
-626.1973863015
 10
259.3349861343
 20
-626.3731083446
  0
ARC
  5
B1
330
1F
100
AcDbEntity
  8
0
  6
Continuous
 62
     7
370
    25
100
AcDbCircle
 10
131.2552721522
 20
-468.8731083446
 30
0.0
 40
157.5000000000001
100
AcDbArc
 50
90.0
 51
180.0
  0
ARC
  5
B2
330
1F
100
AcDbEntity
  8
0
  6
Continuous
 62
     7
370
    25
100
AcDbCircle
 10
131.2552721522
 20
-468.8731083446
 30
0.0
 40
157.5000000000001
100
AcDbArc
 50
180.0
 51
270.0
  0
LWPOLYLINE
  5
B3
330
1F
100
AcDbEntity
  8
0
  6
Continuous
 62
     7
370
    25
100
AcDbPolyline
 90
      121
 70
   128
 43
0.0
 10
259.3349861343
 20
-597.7731083446
 10
253.4926880358
 20
-597.5964553744
 10
247.6664032702
 20
-597.0669806575
 10
241.8721012793
 20
-596.1861354473
 10
236.1256638419
 20
-594.9563340792
 10
230.4428415436
 20
-593.3809473532
 10
224.8392106054
 20
-591.464293295
 10
219.3301301902
 20
-589.2116253201
 10
213.9307003044
 20
-586.6291178347
 10
208.65572041
 20
-583.7238493125
 10
203.5196488604
 20
-580.5037828924
 10
198.5365632705
 20
-576.9777445527
 10
193.7201219316
 20
-573.1553989195
 10
189.0835263747
 20
-569.0472227764
 10
184.6394851858
 20
-564.6644763486
 10
180.4001791731
 20
-560.0191724395
 10
176.3772279795
 20
-555.1240435042
 10
172.5816582347
 20
-549.9925067509
 10
169.0238733315
 20
-544.6386273651
 10
165.7136249111
 20
-539.077079958
 10
162.6599861343
 20
-533.3231083446
 10
159.8713268126
 20
-527.392483761
 10
157.3552904675
 20
-521.301461637
 10
155.1187733797
 20
-515.066737041
 10
153.1679056871
 20
-508.7053989195
 10
151.5080345825
 20
-502.2348832583
 10
150.143709657
 20
-495.672925291
 10
149.0786704306
 20
-489.0375108883
 10
148.3158361017
 20
-482.3468272598
 10
147.8572975462
 20
-475.6192131043
 10
147.7043115864
 20
-468.8731083446
 10
147.8572975462
 20
-462.1270035849
 10
148.3158361017
 20
-455.3993894294
 10
149.0786704306
 20
-448.7087058009
 10
150.143709657
 20
-442.0732913982
 10
151.5080345825
 20
-435.5113334309
 10
153.1679056871
 20
-429.0408177696
 10
155.1187733797
 20
-422.6794796482
 10
157.3552904675
 20
-416.4447550521
 10
159.8713268126
 20
-410.3537329282
 10
162.6599861343
 20
-404.4231083446
 10
165.7136249111
 20
-398.6691367311
 10
169.0238733315
 20
-393.1075893241
 10
172.5816582347
 20
-387.7537099383
 10
176.3772279795
 20
-382.6221731849
 10
180.4001791731
 20
-377.7270442496
 10
184.6394851858
 20
-373.0817403405
 10
189.0835263747
 20
-368.6989939128
 10
193.7201219316
 20
-364.5908177696
 10
198.5365632705
 20
-360.7684721364
 10
203.5196488604
 20
-357.2424337968
 10
208.65572041
 20
-354.0223673767
 10
213.9307003044
 20
-351.1170988544
 10
219.3301301902
 20
-348.5345913691
 10
224.8392106054
 20
-346.2819233941
 10
230.4428415436
 20
-344.3652693359
 10
236.1256638419
 20
-342.78988261
 10
241.8721012793
 20
-341.5600812419
 10
247.6664032702
 20
-340.6792360316
 10
253.4926880358
 20
-340.1497613147
 10
259.3349861343
 20
-339.9731083446
 10
265.1772842328
 20
-340.1497613147
 10
271.0035689983
 20
-340.6792360316
 10
276.7978709892
 20
-341.5600812419
 10
282.5443084266
 20
-342.78988261
 10
288.2271307249
 20
-344.3652693359
 10
293.8307616631
 20
-346.2819233941
 10
299.3398420783
 20
-348.5345913691
 10
304.7392719641
 20
-351.1170988544
 10
310.0142518585
 20
-354.0223673767
 10
315.1503234082
 20
-357.2424337968
 10
320.1334089981
 20
-360.7684721364
 10
324.9498503369
 20
-364.5908177696
 10
329.5864458938
 20
-368.6989939128
 10
334.0304870827
 20
-373.0817403405
 10
338.2697930954
 20
-377.7270442496
 10
342.292744289
 20
-382.6221731849
 10
346.0883140338
 20
-387.7537099383
 10
349.646098937
 20
-393.1075893241
 10
352.9563473574
 20
-398.6691367311
 10
356.0099861343
 20
-404.4231083446
 10
358.7986454559
 20
-410.3537329282
 10
361.314681801
 20
-416.4447550521
 10
363.5511988888
 20
-422.6794796482
 10
365.5020665814
 20
-429.0408177696
 10
367.1619376861
 20
-435.5113334309
 10
368.5262626115
 20
-442.0732913982
 10
369.5913018379
 20
-448.7087058009
 10
370.3541361668
 20
-455.3993894294
 10
370.8126747223
 20
-462.1270035849
 10
370.9656606821
 20
-468.8731083446
 10
370.8126747223
 20
-475.6192131043
 10
370.3541361668
 20
-482.3468272598
 10
369.5913018379
 20
-489.0375108883
 10
368.5262626115
 20
-495.672925291
 10
367.1619376861
 20
-502.2348832583
 10
365.5020665814
 20
-508.7053989195
 10
363.5511988888
 20
-515.066737041
 10
361.314681801
 20
-521.3014616371
 10
358.7986454559
 20
-527.392483761
 10
356.0099861343
 20
-533.3231083446
 10
352.9563473574
 20
-539.077079958
 10
349.646098937
 20
-544.6386273651
 10
346.0883140338
 20
-549.9925067509
 10
342.292744289
 20
-555.1240435042
 10
338.2697930954
 20
-560.0191724395
 10
334.0304870827
 20
-564.6644763486
 10
329.5864458938
 20
-569.0472227764
 10
324.9498503369
 20
-573.1553989195
 10
320.1334089981
 20
-576.9777445527
 10
315.1503234082
 20
-580.5037828924
 10
310.0142518585
 20
-583.7238493125
 10
304.7392719641
 20
-586.6291178347
 10
299.3398420783
 20
-589.2116253201
 10
293.8307616631
 20
-591.464293295
 10
288.2271307249
 20
-593.3809473532
 10
282.5443084266
 20
-594.9563340792
 10
276.7978709892
 20
-596.1861354473
 10
271.0035689983
 20
-597.0669806575
 10
265.1772842328
 20
-597.5964553744
 10
259.3349861343
 20
-597.7731083446
  0
ARC
  5
B4
330
1F
100
AcDbEntity
  8
0
  6
Continuous
 62
     7
370
    25
100
AcDbCircle
 10
131.2552721522
 20
-468.8731083446
 30
0.0
 40
128.9000000000001
100
AcDbArc
 50
302.173718151
 51
57.826281849
  0
LINE
  5
B5
330
1F
100
AcDbEntity
  8
0
  6
Continuous
 62
     7
370
    25
100
AcDbLine
 10
517.1834214721
 20
-450.8324266971
 30
0.0
 11
517.1834214721
 21
-684.363708684
 31
0.0
  0
LINE
  5
B6
330
1F
100
AcDbEntity
  8
0
  6
Continuous
 62
     7
370
    25
100
AcDbLine
 10
832.1834214721
 20
-684.363708684
 30
0.0
 11
832.1834214721
 21
-499.5657361068
 31
0.0
  0
LINE
  5
B7
330
1F
100
AcDbEntity
  8
0
  6
Continuous
 62
     7
370
    25
100
AcDbLine
 10
618.4141039654
 20
-184.8041156613
 30
0.0
 11
519.0342366353
 21
-440.9453937004
 31
0.0
  0
LINE
  5
B8
330
1F
100
AcDbEntity
  8
0
  6
Continuous
 62
     7
370
    25
100
AcDbLine
 10
832.1834214721
 20
-504.6824854026
 30
0.0
 11
912.0848075571
 21
-298.744968089
 31
0.0
  0
LWPOLYLINE
  5
B9
330
1F
100
AcDbEntity
  8
0
  6
Continuous
 62
     7
370
    25
100
AcDbPolyline
 90
      134
 70
   128
 43
0.0
 10
563.3141034352
 20
-620.071569878
 10
568.6977096076
 20
-617.1071410893
 10
574.317811346
 20
-614.2927880018
 10
580.1618680058
 20
-611.6347905377
 10
586.2168392115
 20
-609.1390797286
 10
592.4692139546
 20
-606.8112244813
 10
598.9050407424
 20
-604.656419151
 10
605.5099587286
 20
-602.6794719511
 10
612.2692297587
 20
-600.8847942237
 10
619.1677712558
 20
-599.2763905966
 10
626.1901898764
 20
-597.8578500473
 10
633.3208158587
 20
-596.6323378943
 10
640.5437379878
 20
-595.6025887345
 10
647.8428391002
 20
-594.770900341
 10
655.2018320472
 20
-594.1391285357
 10
662.6042960379
 20
-593.7086830486
 10
670.0337132806
 20
-593.4805243719
 10
677.4735058405
 20
-593.4551616168
 10
684.9070726311
 20
-593.6326513775
 10
692.3178264584
 20
-594.012597605
 10
699.6892310326
 20
-594.5941524906
 10
707.0048378679
 20
-595.3760183581
 10
714.2483229848
 20
-596.3564505589
 10
721.4035233356
 20
-597.5332613654
 10
728.4544728706
 20
-598.9038248525
 10
735.3854381642
 20
-600.4650827573
 10
742.1809535226
 20
-602.2135513028
 10
748.825855494
 20
-604.1453289719
 10
755.3053167037
 20
-606.2561052135
 10
761.6048789401
 20
-608.5411700602
 10
767.7104854167
 20
-610.995424639
 10
773.6085121379
 20
-613.6133925481
 10
779.2857982998
 20
-616.3892320775
 10
784.7296756571
 20
-619.3167492438
 10
789.9279967907
 20
-622.3894116115
 10
794.8691622136
 20
-625.6003628693
 10
799.5421462534
 20
-628.9424381294
 10
803.9365216557
 20
-632.4081799151
 10
808.0424828505
 20
-635.9898548013
 10
811.850867833
 20
-639.6794706708
 10
815.3531786071
 20
-643.4687945478
 10
818.5416001478
 20
-647.3493709691
 10
821.4090178402
 20
-651.3125408514
 10
823.9490333539
 20
-655.3494608128
 10
826.1559789213
 20
-659.4511229064
 10
828.0249299838
 20
-663.6083747203
 10
829.5517161808
 20
-667.8119398001
 10
830.7329306553
 20
-672.0524383484
 10
831.5659376558
 20
-676.3204081548
 10
832.0488784181
 20
-680.6063257098
 10
832.1806753124
 20
-684.9006274554
 10
831.9610342485
 20
-689.1937311253
 10
831.3904453312
 20
-693.4760571265
 10
830.4701817677
 20
-697.7380499152
 10
829.2022970259
 20
-701.9701993189
 10
827.5896202522
 20
-706.1630617575
 10
825.6357499593
 20
-710.3072813153
 10
823.3450459957
 20
-714.3936106181
 10
820.7226198177
 20
-718.4129314672
 10
817.7743230835
 20
-722.3562751863
 10
814.506734596
 20
-726.2148426336
 10
810.9271456228
 20
-729.9800238363
 10
807.0435436267
 20
-733.6434172029
 10
802.8645944421
 20
-737.1968482702
 10
798.399622939
 20
-740.6323879442
 10
793.6585922145
 20
-743.9423701924
 10
788.652081362
 20
-747.1194091502
 10
783.391261865
 20
-750.1564156013
 10
777.8878726688
 20
-753.0466127968
 10
772.1541939868
 20
-755.7835515767
 10
766.2030198979
 20
-758.3611247603
 10
760.0476297987
 20
-760.773580774
 10
753.7017587714
 20
-763.015536485
 10
747.1795669355
 20
-765.0819892135
 10
740.4956078515
 20
-766.9683278955
 10
733.6647960457
 20
-768.6703433717
 10
726.70237373
 20
-770.1842377801
 10
719.6238767913
 20
-771.5066330303
 10
712.4451001241
 20
-772.6345783415
 10
705.182062386
 20
-773.5655568265
 10
697.8509702545
 20
-774.2974911083
 10
690.4681822625
 20
-774.8287479554
 10
683.0501722971
 20
-775.1581419259
 10
675.6134928389
 20
-775.2849380132
 10
668.1747380279
 20
-775.2088532856
 10
660.7505066347
 20
-774.9300575179
 10
653.3573650225
 20
-774.4491728124
 10
646.0118101813
 20
-773.767272211
 10
638.7302329161
 20
-772.8858773005
 10
631.5288812731
 20
-771.8069548176
 10
624.4238242837
 20
-770.5329122603
 10
617.4309161083
 20
-769.0665925157
 10
610.5657606594
 20
-767.4112675165
 10
603.8436767832
 20
-765.5706309401
 10
597.2796640774
 20
-763.5487899663
 10
590.8883694209
 20
-761.350256113
 10
584.6840542914
 20
-758.979935169
 10
578.6805629418
 20
-756.4431162469
 10
572.891291509
 20
-753.7454599819
 10
567.3291581211
 20
-750.8929859
 10
562.0065740728
 20
-747.892058986
 10
556.9354161302
 20
-744.7493754816
 10
552.1270000297
 20
-741.4719479423
 10
547.5920552278
 20
-738.0670895906
 10
543.3407009596
 20
-734.5423979969
 10
539.3824236588
 20
-730.9057381263
 10
535.72605579
 20
-727.165224789
 10
532.3797561395
 20
-723.3292045329
 10
529.3509916104
 20
-719.4062370191
 10
526.6465205605
 20
-715.4050759223
 10
524.2723777224
 20
-711.3346493972
 10
522.2338607371
 20
-707.2040401572
 10
520.535518333
 20
-703.0224652065
 10
519.1811401762
 20
-698.799255274
 10
518.1737484139
 20
-694.5438339925
 10
517.515590931
 20
-690.2656968708
 10
517.2081363343
 20
-685.9743901055
 10
517.2520706752
 20
-681.6794892803
 10
517.6472959189
 20
-677.3905779981
 10
518.3929301635
 20
-673.1172264971
 10
519.4873096073
 20
-668.8689702955
 10
520.927992262
 20
-664.6552889141
 10
522.711763401
 20
-660.4855847236
 10
524.8346427336
 20
-656.3691619645
 10
527.2918932859
 20
-652.3152059857
 10
530.078031971
 20
-648.3327627481
 10
533.1868418241
 20
-644.4307186398
 10
536.6113858748
 20
-640.617780647
 10
540.3440226262
 20
-636.9024569253
 10
544.3764231062
 20
-633.2930378147
 10
548.6995894526
 20
-629.7975773407
 10
553.3038749908
 20
-626.4238752422
 10
558.1790057593
 20
-623.179459568
 10
563.3141034352
 20
-620.071569878
  0
LWPOLYLINE
  5
BA
330
1F
100
AcDbEntity
  8
0
  6
Continuous
 62
     7
370
    25
100
AcDbPolyline
 90
      121
 70
   128
 43
0.0
 10
583.5373573771
 20
-631.746205877
 10
578.8920534681
 20
-634.5721036604
 10
574.5093070403
 20
-637.5344767723
 10
570.4011308972
 20
-640.6252055537
 10
566.5787852639
 20
-643.835818532
 10
563.0527469243
 20
-647.1575156401
 10
559.8326805042
 20
-650.5811923372
 10
556.927411982
 20
-654.0974645634
 10
554.3449044966
 20
-657.6966944609
 10
552.0922365216
 20
-661.3690167909
 10
550.1755824634
 20
-665.1043659729
 10
548.6001957375
 20
-668.8925036747
 10
547.3703943694
 20
-672.723046874
 10
546.4895491591
 20
-676.5854963182
 10
545.9600744422
 20
-680.4692653018
 10
545.7834214721
 20
-684.363708684
 10
545.9600744422
 20
-688.2581520662
 10
546.4895491591
 20
-692.1419210498
 10
547.3703943694
 20
-696.004370494
 10
548.6001957375
 20
-699.8349136933
 10
550.1755824634
 20
-703.623051395
 10
552.0922365216
 20
-707.3584005771
 10
554.3449044966
 20
-711.0307229071
 10
556.927411982
 20
-714.6299528046
 10
559.8326805042
 20
-718.1462250308
 10
563.0527469243
 20
-721.5699017279
 10
566.5787852639
 20
-724.891598836
 10
570.4011308972
 20
-728.1022118143
 10
574.5093070403
 20
-731.1929405957
 10
578.8920534681
 20
-734.1553137076
 10
583.5373573771
 20
-736.981211491
 10
588.4324863124
 20
-739.6628883566
 10
593.5640230658
 20
-742.1929940145
 10
598.9179024516
 20
-744.564593621
 10
604.4794498587
 20
-746.7711867864
 10
610.2334214721
 20
-748.8067253923
 10
616.1640460557
 20
-750.6656301687
 10
622.2550681796
 20
-752.3428059869
 10
628.4897927757
 20
-753.8336558245
 10
634.8511308972
 20
-755.1340933659
 10
641.3216465584
 20
-756.240554202
 10
647.8836045257
 20
-757.1500056007
 10
654.5190189284
 20
-757.8599548188
 10
661.2097025569
 20
-758.3684559349
 10
667.9373167124
 20
-758.6741151829
 10
674.6834214721
 20
-758.7760947718
 10
681.4295262318
 20
-758.6741151829
 10
688.1571403873
 20
-758.3684559349
 10
694.8478240158
 20
-757.8599548188
 10
701.4832384185
 20
-757.1500056007
 10
708.0451963858
 20
-756.240554202
 10
714.515712047
 20
-755.1340933659
 10
720.8770501685
 20
-753.8336558245
 10
727.1117747646
 20
-752.3428059869
 10
733.2027968885
 20
-750.6656301687
 10
739.1334214721
 20
-748.8067253923
 10
744.8873930855
 20
-746.7711867864
 10
750.4489404926
 20
-744.564593621
 10
755.8028198784
 20
-742.1929940145
 10
760.9343566318
 20
-739.6628883566
 10
765.829485567
 20
-736.981211491
 10
770.4747894761
 20
-734.1553137076
 10
774.8575359039
 20
-731.1929405957
 10
778.965712047
 20
-728.1022118143
 10
782.7880576803
 20
-724.891598836
 10
786.3140960199
 20
-721.5699017279
 10
789.53416244
 20
-718.1462250308
 10
792.4394309622
 20
-714.6299528046
 10
795.0219384476
 20
-711.0307229071
 10
797.2746064225
 20
-707.3584005771
 10
799.1912604808
 20
-703.623051395
 10
800.7666472067
 20
-699.8349136933
 10
801.9964485748
 20
-696.004370494
 10
802.8772937851
 20
-692.1419210498
 10
803.406768502
 20
-688.2581520662
 10
803.5834214721
 20
-684.363708684
 10
803.406768502
 20
-680.4692653018
 10
802.8772937851
 20
-676.5854963182
 10
801.9964485748
 20
-672.723046874
 10
800.7666472067
 20
-668.8925036747
 10
799.1912604808
 20
-665.1043659729
 10
797.2746064225
 20
-661.3690167909
 10
795.0219384476
 20
-657.6966944609
 10
792.4394309622
 20
-654.0974645634
 10
789.53416244
 20
-650.5811923372
 10
786.3140960199
 20
-647.1575156401
 10
782.7880576803
 20
-643.835818532
 10
778.965712047
 20
-640.6252055537
 10
774.8575359039
 20
-637.5344767723
 10
770.4747894761
 20
-634.5721036604
 10
765.829485567
 20
-631.746205877
 10
760.9343566317
 20
-629.0645290114
 10
755.8028198784
 20
-626.5344233535
 10
750.4489404926
 20
-624.162823747
 10
744.8873930855
 20
-621.9562305815
 10
739.1334214721
 20
-619.9206919757
 10
733.2027968885
 20
-618.0617871993
 10
727.1117747646
 20
-616.3846113811
 10
720.8770501685
 20
-614.8937615434
 10
714.515712047
 20
-613.5933240021
 10
708.0451963858
 20
-612.486863166
 10
701.4832384185
 20
-611.5774117673
 10
694.8478240158
 20
-610.8674625492
 10
688.1571403873
 20
-610.3589614331
 10
681.4295262318
 20
-610.0533021851
 10
674.6834214721
 20
-609.9513225962
 10
667.9373167124
 20
-610.0533021851
 10
661.2097025569
 20
-610.3589614331
 10
654.5190189284
 20
-610.8674625492
 10
647.8836045257
 20
-611.5774117673
 10
641.3216465584
 20
-612.486863166
 10
634.8511308972
 20
-613.5933240021
 10
628.4897927757
 20
-614.8937615434
 10
622.2550681796
 20
-616.3846113811
 10
616.1640460557
 20
-618.0617871993
 10
610.2334214721
 20
-619.9206919757
 10
604.4794498587
 20
-621.9562305815
 10
598.9179024516
 20
-624.162823747
 10
593.5640230658
 20
-626.5344233535
 10
588.4324863124
 20
-629.0645290114
 10
583.5373573771
 20
-631.746205877
  0
ELLIPSE
  5
BB
330
1F
100
AcDbEntity
  8
0
  6
Continuous
 62
     7
370
    25
100
AcDbEllipse
 10
674.6834214721
 20
-475.199081402
 30
0.0
 11
157.0366145390773
 21
-29.39665999586771
 31
0.0
210
0.0
220
0.0
230
1.0
 40
0.4106849769
 41
0.0767277489784145
 42
3.218320402568241
  0
LWPOLYLINE
  5
BC
330
1F
100
AcDbEntity
  8
0
  6
Continuous
 62
     7
370
    25
100
AcDbPolyline
 90
       55
 70
   128
 43
0.0
 10
653.8801377244
 20
-177.4824030691
 10
658.5591243464
 20
-177.9613952293
 10
663.4761788161
 20
-178.5827794721
 10
668.6203292623
 20
-179.3451692462
 10
673.980097074
 20
-180.2468633619
 10
679.5435225133
 20
-181.2858497871
 10
685.2981914027
 20
-182.4598101369
 10
691.2312628256
 20
-183.7661248466
 10
697.3294977798
 20
-185.2018790172
 10
703.5792887185
 20
-186.7638689199
 10
709.9666899143
 20
-188.4486091444
 10
716.4774485775
 20
-190.2523403765
 10
723.0970366597
 20
-192.1710377865
 10
729.8106832715
 20
-194.2004200102
 10
736.6034076421
 20
-196.3359587024
 10
743.4600525472
 20
-198.5728886411
 10
750.3653181312
 20
-200.906218361
 10
757.3037960462
 20
-203.3307412912
 10
764.2600038349
 20
-205.8410473728
 10
771.2184194779
 20
-208.4315351315
 10
778.1635160287
 20
-211.0964241762
 10
785.0797962614
 20
-213.8297680972
 10
791.9518272504
 20
-216.6254677356
 10
798.7642748073
 20
-219.4772847923
 10
805.5019376978
 20
-222.3788557482
 10
812.1497815616
 20
-225.3237060641
 10
818.6929724593
 20
-228.3052646273
 10
825.1169099737
 20
-231.3168784148
 10
831.4072597882
 20
-234.3518273388
 10
837.5499856727
 20
-237.4033392412
 10
843.5313808038
 20
-240.464605006
 10
849.3380983501
 20
-243.5287937522
 10
854.9571812542
 20
-246.5890680765
 10
860.3760911449
 20
-249.6385993102
 10
865.5827363155
 20
-252.6705827568
 10
870.5654987045
 20
-255.6782528756
 10
875.3132598207
 20
-258.6548983784
 10
879.8154255527
 20
-261.5938772053
 10
884.0619498081
 20
-264.4886313453
 10
888.0433569309
 20
-267.3327014699
 10
891.7507628449
 20
-270.1197413467
 10
895.175894878
 20
-272.8435319998
 10
898.3111102212
 20
-275.4979955872
 10
901.1494129831
 20
-278.0772089628
 10
903.6844698005
 20
-280.5754168929
 10
905.9106239703
 20
-282.9870448989
 10
907.8229080721
 20
-285.3067116955
 10
909.4170550524
 20
-287.5292411993
 10
910.6895077457
 20
-289.6496740777
 10
911.6374268128
 20
-291.6632788158
 10
912.2586970754
 20
-293.5655622743
 10
912.5519322366
 20
-295.3522797147
 10
912.5164779742
 20
-297.019444272
 10
912.1524134004
 20
-298.5633358499
 10
912.0848075571
 20
-298.744968089
  0
LWPOLYLINE
  5
BD
330
1F
100
AcDbEntity
  8
0
  6
Continuous
 62
     7
370
    25
100
AcDbPolyline
 90
       15
 70
   128
 43
0.0
 10
618.4141039654
 20
-184.8041156613
 10
618.6515340144
 20
-184.2611170086
 10
619.5067621684
 20
-182.9085062444
 10
620.6871992606
 20
-181.6872486236
 10
622.1902112741
 20
-180.6000692496
 10
624.0124444015
 20
-179.6493940447
 10
626.1498325282
 20
-178.8373443369
 10
628.5976063054
 20
-178.1657321266
 10
631.3503037928
 20
-177.6360560435
 10
634.4017826458
 20
-177.2494980018
 10
637.745233822
 20
-177.0069205638
 10
641.3731967744
 20
-176.9088650145
 10
645.277576099
 20
-176.9555501543
 10
649.4496595989
 20
-177.1468718103
 10
653.8801377244
 20
-177.4824030691
  0
ENDSEC
  0
SECTION
  2
OBJECTS
  0
DICTIONARY
  5
C
330
0
100
AcDbDictionary
281
     1
  3
ACAD_GROUP
350
D
  3
ACAD_LAYOUT
350
1A
  3
ACAD_MLINESTYLE
350
17
  3
ACAD_PLOTSETTINGS
350
19
  3
ACAD_PLOTSTYLENAME
350
E
  3
ACAD_SCALELIST
350
47
  3
DWGPROPS
350
BE
  0
DICTIONARY
  5
D
102
{ACAD_REACTORS
330
C
102
}
330
C
100
AcDbDictionary
281
     1
  0
DICTIONARY
  5
1A
102
{ACAD_REACTORS
330
C
102
}
330
C
100
AcDbDictionary
281
     1
  3
Layout1
350
1E
  3
Layout2
350
26
  3
Model
350
22
  0
DICTIONARY
  5
17
102
{ACAD_REACTORS
330
C
102
}
330
C
100
AcDbDictionary
281
     1
  3
Standard
350
18
  0
DICTIONARY
  5
19
102
{ACAD_REACTORS
330
C
102
}
330
C
100
AcDbDictionary
281
     1
  0
ACDBDICTIONARYWDFLT
  5
E
102
{ACAD_REACTORS
330
C
102
}
330
C
100
AcDbDictionary
281
     1
  3
Normal
350
F
100
AcDbDictionaryWithDefault
340
F
  0
DICTIONARY
  5
47
102
{ACAD_REACTORS
330
C
102
}
330
C
100
AcDbDictionary
281
     1
  3
A0
350
48
  3
A1
350
49
  3
A2
350
4A
  3
A3
350
4B
  3
A4
350
4C
  3
A5
350
4D
  3
A6
350
4E
  3
A7
350
4F
  3
A8
350
50
  3
A9
350
51
  3
B0
350
52
  3
B1
350
53
  3
B2
350
54
  3
B3
350
55
  3
B4
350
56
  3
B5
350
57
  3
B6
350
58
  3
B7
350
59
  3
B8
350
5A
  3
B9
350
5B
  3
C0
350
5C
  3
C1
350
5D
  3
C2
350
5E
  3
C3
350
5F
  3
C4
350
60
  3
C5
350
61
  3
C6
350
62
  3
C7
350
63
  3
C8
350
64
  3
C9
350
65
  3
D0
350
66
  3
D1
350
67
  3
D2
350
68
  0
XRECORD
  5
BE
102
{ACAD_REACTORS
330
C
102
}
330
C
100
AcDbXrecord
280
     1
  1
DWGPROPS COOKIE
  2

  3

  4

  6

  7

  8
b.kav
  9

300
=
301
=
302
=
303
=
304
=
305
=
306
=
307
=
308
=
309
=
 40
0.0
 41
2460682.394617199
 42
2460682.394617199
  1

 90
        0
  0
LAYOUT
  5
1E
102
{ACAD_REACTORS
330
1A
102
}
330
1A
100
AcDbPlotSettings
  1

  2
none_device
  4

  6

 40
0.0
 41
0.0
 42
0.0
 43
0.0
 44
0.0
 45
0.0
 46
0.0
 47
0.0
 48
0.0
 49
0.0
140
0.0
141
0.0
142
1.0
143
1.0
 70
   688
 72
     1
 73
     0
 74
     5
  7

 75
    16
147
1.0
148
0.0
149
0.0
100
AcDbLayout
  1
Layout1
 70
     1
 71
     1
 10
0.0
 20
0.0
 11
420.0
 21
297.0
 12
0.0
 22
0.0
 32
0.0
 14
1.0000000000E+20
 24
1.0000000000E+20
 34
1.0000000000E+20
 15
-1.0000000000E+20
 25
-1.0000000000E+20
 35
-1.0000000000E+20
146
0.0
 13
0.0
 23
0.0
 33
0.0
 16
1.0
 26
0.0
 36
0.0
 17
0.0
 27
1.0
 37
0.0
 76
     0
330
1B
  0
LAYOUT
  5
26
102
{ACAD_REACTORS
330
1A
102
}
330
1A
100
AcDbPlotSettings
  1

  2
none_device
  4

  6

 40
0.0
 41
0.0
 42
0.0
 43
0.0
 44
0.0
 45
0.0
 46
0.0
 47
0.0
 48
0.0
 49
0.0
140
0.0
141
0.0
142
1.0
143
1.0
 70
   688
 72
     1
 73
     0
 74
     5
  7

 75
    16
147
1.0
148
0.0
149
0.0
100
AcDbLayout
  1
Layout2
 70
     1
 71
     2
 10
0.0
 20
0.0
 11
0.0
 21
0.0
 12
0.0
 22
0.0
 32
0.0
 14
0.0
 24
0.0
 34
0.0
 15
0.0
 25
0.0
 35
0.0
146
0.0
 13
0.0
 23
0.0
 33
0.0
 16
1.0
 26
0.0
 36
0.0
 17
0.0
 27
1.0
 37
0.0
 76
     0
330
23
  0
LAYOUT
  5
22
102
{ACAD_REACTORS
330
1A
102
}
330
1A
100
AcDbPlotSettings
  1

  2
none_device
  4
Letter_(8.50_x_11.00_Inches)
  6

 40
6.35
 41
6.35
 42
6.35000508
 43
6.35000508
 44
215.9
 45
279.4
 46
0.0
 47
0.0
 48
0.0
 49
0.0
140
0.0
141
0.0
142
1.0
143
1.0
 70
  1712
 72
     1
 73
     0
 74
     0
  7

 75
     0
147
1.0
148
0.0
149
0.0
100
AcDbLayout
  1
Model
 70
     1
 71
     0
 10
0.0
 20
0.0
 11
279.4
 21
215.9
 12
0.0
 22
0.0
 32
0.0
 14
0.0
 24
0.0
 34
0.0
 15
279.4
 25
215.9
 35
0.0
146
0.0
 13
0.0
 23
0.0
 33
0.0
 16
1.0
 26
0.0
 36
0.0
 17
0.0
 27
1.0
 37
0.0
 76
     0
330
1F
331
29
  0
MLINESTYLE
  5
18
102
{ACAD_REACTORS
330
17
102
}
330
17
100
AcDbMlineStyle
  2
Standard
 70
     0
  3

 62
   256
 51
90.0
 52
90.0
 71
     2
 49
0.5
 62
   256
  6
BYLAYER
 49
-0.5
 62
   256
  6
BYLAYER
  0
ACDBPLACEHOLDER
  5
F
102
{ACAD_REACTORS
330
E
102
}
330
E
  0
SCALE
  5
48
102
{ACAD_REACTORS
330
47
102
}
330
47
100
AcDbScale
 70
     0
300
1:1
140
1.0
141
1.0
290
     1
  0
SCALE
  5
49
102
{ACAD_REACTORS
330
47
102
}
330
47
100
AcDbScale
 70
     0
300
1:2
140
1.0
141
2.0
290
     0
  0
SCALE
  5
4A
102
{ACAD_REACTORS
330
47
102
}
330
47
100
AcDbScale
 70
     0
300
1:4
140
1.0
141
4.0
290
     0
  0
SCALE
  5
4B
102
{ACAD_REACTORS
330
47
102
}
330
47
100
AcDbScale
 70
     0
300
1:5
140
1.0
141
5.0
290
     0
  0
SCALE
  5
4C
102
{ACAD_REACTORS
330
47
102
}
330
47
100
AcDbScale
 70
     0
300
1:8
140
1.0
141
8.0
290
     0
  0
SCALE
  5
4D
102
{ACAD_REACTORS
330
47
102
}
330
47
100
AcDbScale
 70
     0
300
1:10
140
1.0
141
10.0
290
     0
  0
SCALE
  5
4E
102
{ACAD_REACTORS
330
47
102
}
330
47
100
AcDbScale
 70
     0
300
1:16
140
1.0
141
16.0
290
     0
  0
SCALE
  5
4F
102
{ACAD_REACTORS
330
47
102
}
330
47
100
AcDbScale
 70
     0
300
1:20
140
1.0
141
20.0
290
     0
  0
SCALE
  5
50
102
{ACAD_REACTORS
330
47
102
}
330
47
100
AcDbScale
 70
     0
300
1:30
140
1.0
141
30.0
290
     0
  0
SCALE
  5
51
102
{ACAD_REACTORS
330
47
102
}
330
47
100
AcDbScale
 70
     0
300
1:40
140
1.0
141
40.0
290
     0
  0
SCALE
  5
52
102
{ACAD_REACTORS
330
47
102
}
330
47
100
AcDbScale
 70
     0
300
1:50
140
1.0
141
50.0
290
     0
  0
SCALE
  5
53
102
{ACAD_REACTORS
330
47
102
}
330
47
100
AcDbScale
 70
     0
300
1:100
140
1.0
141
100.0
290
     0
  0
SCALE
  5
54
102
{ACAD_REACTORS
330
47
102
}
330
47
100
AcDbScale
 70
     0
300
2:1
140
2.0
141
1.0
290
     0
  0
SCALE
  5
55
102
{ACAD_REACTORS
330
47
102
}
330
47
100
AcDbScale
 70
     0
300
4:1
140
4.0
141
1.0
290
     0
  0
SCALE
  5
56
102
{ACAD_REACTORS
330
47
102
}
330
47
100
AcDbScale
 70
     0
300
8:1
140
8.0
141
1.0
290
     0
  0
SCALE
  5
57
102
{ACAD_REACTORS
330
47
102
}
330
47
100
AcDbScale
 70
     0
300
10:1
140
10.0
141
1.0
290
     0
  0
SCALE
  5
58
102
{ACAD_REACTORS
330
47
102
}
330
47
100
AcDbScale
 70
     0
300
100:1
140
100.0
141
1.0
290
     0
  0
SCALE
  5
59
102
{ACAD_REACTORS
330
47
102
}
330
47
100
AcDbScale
 70
     0
300
1/128" = 1'-0"
140
0.0078125
141
12.0
290
     0
  0
SCALE
  5
5A
102
{ACAD_REACTORS
330
47
102
}
330
47
100
AcDbScale
 70
     0
300
1/64" = 1'-0"
140
0.015625
141
12.0
290
     0
  0
SCALE
  5
5B
102
{ACAD_REACTORS
330
47
102
}
330
47
100
AcDbScale
 70
     0
300
1/32" = 1'-0"
140
0.03125
141
12.0
290
     0
  0
SCALE
  5
5C
102
{ACAD_REACTORS
330
47
102
}
330
47
100
AcDbScale
 70
     0
300
1/16" = 1'-0"
140
0.0625
141
12.0
290
     0
  0
SCALE
  5
5D
102
{ACAD_REACTORS
330
47
102
}
330
47
100
AcDbScale
 70
     0
300
3/32" = 1'-0"
140
0.09375
141
12.0
290
     0
  0
SCALE
  5
5E
102
{ACAD_REACTORS
330
47
102
}
330
47
100
AcDbScale
 70
     0
300
1/8" = 1'-0"
140
0.125
141
12.0
290
     0
  0
SCALE
  5
5F
102
{ACAD_REACTORS
330
47
102
}
330
47
100
AcDbScale
 70
     0
300
3/16" = 1'-0"
140
0.1875
141
12.0
290
     0
  0
SCALE
  5
60
102
{ACAD_REACTORS
330
47
102
}
330
47
100
AcDbScale
 70
     0
300
1/4" = 1'-0"
140
0.25
141
12.0
290
     0
  0
SCALE
  5
61
102
{ACAD_REACTORS
330
47
102
}
330
47
100
AcDbScale
 70
     0
300
3/8" = 1'-0"
140
0.375
141
12.0
290
     0
  0
SCALE
  5
62
102
{ACAD_REACTORS
330
47
102
}
330
47
100
AcDbScale
 70
     0
300
1/2" = 1'-0"
140
0.5
141
12.0
290
     0
  0
SCALE
  5
63
102
{ACAD_REACTORS
330
47
102
}
330
47
100
AcDbScale
 70
     0
300
3/4" = 1'-0"
140
0.75
141
12.0
290
     0
  0
SCALE
  5
64
102
{ACAD_REACTORS
330
47
102
}
330
47
100
AcDbScale
 70
     0
300
1" = 1'-0"
140
1.0
141
12.0
290
     0
  0
SCALE
  5
65
102
{ACAD_REACTORS
330
47
102
}
330
47
100
AcDbScale
 70
     0
300
1-1/2" = 1'-0"
140
1.5
141
12.0
290
     0
  0
SCALE
  5
66
102
{ACAD_REACTORS
330
47
102
}
330
47
100
AcDbScale
 70
     0
300
3" = 1'-0"
140
3.0
141
12.0
290
     0
  0
SCALE
  5
67
102
{ACAD_REACTORS
330
47
102
}
330
47
100
AcDbScale
 70
     0
300
6" = 1'-0"
140
6.0
141
12.0
290
     0
  0
SCALE
  5
68
102
{ACAD_REACTORS
330
47
102
}
330
47
100
AcDbScale
 70
     0
300
1'-0" = 1'-0"
140
12.0
141
12.0
290
     0
  0
ENDSEC
  0
EOF
